-----------------------------------------------------------------------------
           MURDER THE GOVERNMENT - Nofx
-----------------------------------------------------------------------------

figured out by jeremy   richardhaltom@worldnet.att.net

CHORDS:
BG#EmF# *F#B*
-------------------------------------2------------------------7
-------------------------------------2------------------------7
-------------------------------------3------------------------8
9-----------6-----------2----------4-----------4-----------9
9-----------6-----------2----------4-----------4-----------9
7-----------4-----------0----------2-----------2-----------7

*pick individual strings

B               G#
I WANNA SEE THE CONSTITUTION BURN

                     Em
WANNA WATCH THE WHITEHOUSE OVERTURN

                F# *
WANNA WITNESS SOME BLUE BLOOD BLEED RED

(FAST)
B               G#
I WANNA TAR AND LYNCH THE KKK

                Em
I WANNA PULL AND SHOOT THE NRA

F#
YEAH YEAH YEAH


chorus:
B
MURDER THE GOVERNMENT

G#
MURDER THE GOVERNMENT

Em              F#
MURDER THE GOVERNMENT AND THEN DO IT AGAIN YEAH

B
MURDER THE GOVERNMENT

G#
MURDER THE GOVERNMENT

Em                   B*
MURDER THE GOVERNMENT AND THEN MURDER THE GOVERNMENT

-----------------------------------------------------------------------------