-------------------------------------------------------------------------------------------------------------------
                           MALACHI CRUNCH - NOFX
-------------------------------------------------------------------------------------------------------------------

By: Jeff Munt

e-|-------------------------------------------------|
B-|-------------------------------------------------|
G-|-------------------------------------------------|
D-|-------------------------------------------------|
A-|-4-4-7-4-4-6-4-4-7-4-6-4-4-4-7-4-4-6-4-4-7-4-6-4-|
E-|-------------------------------------------------|

e-|-------------------------------------------|
B-|-------------------------------------------|
G-|-------------------------------------------|
D-|-6----6-8-9--6-----6-8-9-6-8-9-6-8-9-6-8-9-|
A-|-4----4-6-7--4-----4-6-7-4-6-7-4-5-7-4-6-7-|
E-|-------------------------------------------|

e-|---------------------------------------------------------
B-|---------------------------------------------------------
G-|---------------------------------------------------------
D-|---------------------------------6-8-9-6-8-9-6-8-9-6-8-9-
A-|-7-7-7-7-7-7-7-7-9-9-9-9-9-9-9-9-4-6-7-4-6-7-4-6-7-4-6-7-
E-|-5-5-5-5-5-5-5-5-7-7-7-7-7-7-7-7-------------------------

e-|---------------------------------------------------------
B-|---------------------------------------------------------
G-|---------------------------------------------------------
D-|---------------------------------6-8-9-6-8-9-6-8-9-6-8-9-
A-|-7-7-7-7-7-7-7-7-9-9-9-9-9-9-9-9-4-6-7-4-6-7-4-6-7-4-6-7-
E-|-5-5-5-5-5-5-5-5-7-7-7-7-7-7-7-7-------------------------

e-|---------------------------------------------------------
B-|---------------------------------------------------------
G-|---------------------------------------------------------
D-|---------------------------------6-8-9-6-8-9-6-8-9-6-8-9-
A-|-7-7-7-7-7-7-7-7-9-9-9-9-9-9-9-9-4-6-7-4-6-7-4-6-7-4-6-7-
E-|-5-5-5-5-5-5-5-5-7-7-7-7-7-7-7-7-------------------------

e-|----------------------------------|
B-|----------------------------------|
G-|----------------------------------|
D-|----------------------------------|
A-|-7-7-7-7-7-7-7-7-9-9-9-9-9-9-9-9--|
E-|-5-5-5-5-5-5-5-5-7-7-7-7-7-7-7-7--|

e-|---------------------------------------|-------------------------|
B-|---------------------------------------|-------------------------|
G-|---------------------------------------|-------------------------|
D-|-6-6-8-8-8-6---------6-6-8-8-8-6-----6-|-6-8-9-6-8-9-6-8-9-6-8-9-|
A-|-4-4-6-6-6-4-2-4-4-2-4-4-6-6-6-4-2-4-4-|-4-6-7-4-6-7-4-6-7-4-6-7-|
E-|-------------0-2-2-0-------------0-2---|-------------------------|

e-|---------------------------------------------------------
B-|---------------------------------------------------------
G-|---------------------------------------------------------
D-|---------------------------------6-8-9-6-8-9-6-8-9-6-8-9-
A-|-7-7-7-7-7-7-7-7-9-9-9-9-9-9-9-9-4-6-7-4-6-7-4-6-7-4-6-7-
E-|-5-5-5-5-5-5-5-5-7-7-7-7-7-7-7-7-------------------------

e-|---------------------------------------------------------
B-|---------------------------------------------------------
G-|---------------------------------------------------------
D-|---------------------------------6-8-9-6-8-9-6-8-9-6-8-9-
A-|-7-7-7-7-7-7-7-7-9-9-9-9-9-9-9-9-4-6-7-4-6-7-4-6-7-4-6-7-
E-|-5-5-5-5-5-5-5-5-7-7-7-7-7-7-7-7-------------------------

e-|---------------------------------------------------------
B-|---------------------------------------------------------
G-|---------------------------------------------------------
D-|---------------------------------6-8-9-6-8-9-6-8-9-6-8-9-
A-|-7-7-7-7-7-7-7-7-9-9-9-9-9-9-9-9-4-6-7-4-6-7-4-6-7-4-6-7-
E-|-5-5-5-5-5-5-5-5-7-7-7-7-7-7-7-7-------------------------

e-|----------------------------------|
B-|----------------------------------|
G-|----------------------------------|
D-|----------------------------------|
A-|-7-7-7-7-7-7-7-7-9-9-9-9-9-9-9-9--|
E-|-5-5-5-5-5-5-5-5-7-7-7-7-7-7-7-7--|

e-|---------------------------------------|
B-|---------------------------------------|
G-|---------------------------------------|
D-|-6-6-8-8-8-6---------6-6-8-8-8-6-----6-|
A-|-4-4-6-6-6-4-2-4-4-2-4-4-6-6-6-4-2-4-4-|
E-|-------------0-2-2-0-------------0-2---|

e-|-----------------------------------------------------------------------
B-|-----------------------------------------------------------------------
G-|-----------------------------------------------------------------------
D-|---------------6-6-6-6-9-8-8---------------6-6-6-6-9-8-8---------------
A-|-7-7-7-6-6-4-4-4-4-4-4-7-6-6-7-7-7-6-6-4-4-4-4-4-4-7-6-6-7-7-7-6-6-4-4-
E-|-5-5-5-4-4-2-2---------------5-5-5-4-4-2-2---------------5-5-5-4-4-2-2-

e-|---------------------------------------------------------
B-|---------------------------------------------------------
G-|---------------------------------------------------------
D-|-6-6-6-6-9-8-8---------------6-6-6-6-9-8-8---------------
A-|-4-4-4-4-7-6-6-7-7-7-6-6-4-4-4-4-4-4-7-6-6-7-7-7-6-6-4-4-
E-|---------------5-5-5-4-4-2-2---------------5-5-5-4-4-2-2-

e-|---------------------------------------------------------|
B-|---------------------------------------------------------|
G-|---------------------------------------------------------|
D-|-6-6-6-6-9-8-8---------------6-6-6-6-9-8-8---------------|
A-|-4-4-4-4-7-6-6-7-7-7-6-6-4-4-4-4-4-4-7-6-6-7-7-7-6-6-4-4-|
E-|---------------5-5-5-4-4-2-2---------------5-5-5-4-4-2-2-|
GUITAR_1_PLAYS_THIS
e-|-------------------------------------------------|
B-|-------------------------------------------------|
G-|-------------------------------------------------|
D-|-------------------------------------------------|
A-|-4-4-7-4-4-6-4-4-7-4-6-4-4-4-7-4-4-6-4-4-7-4-6-4-|
E-|-------------------------------------------------|
GUITAR_2_PLAYS_THIS
e-|-----------------------------------------------------------------
B-|-----------------------------------------------------------------
G-|-----------------------------------------------------------------
D-|-6-6-6-6-6-6-6-6-----------------6-6-6-6-6-6-6-6-----------------
A-|-4-4-4-4-4-4-4-4-7-7-7-7-7-7-7-7-4-4-4-4-4-4-4-4-7-7-7-7-7-7-7-7-
E-|-----------------5-5-5-5-5-5-5-5-----------------5-5-5-5-5-5-5-5-

e-|------------------|-------------------------
B-|------------------|-------------------------
G-|------------------|-------------------------
D-|-6-6-8-9--9-8-9-6-|-6-8-9-6-8-9-6-8-9-6-8-9-
A-|-4-4-6-7--7-6-7-4-|-4-6-7-4-6-7-4-6-7-4-6-7-
E-|------------------|-------------------------

e-|---------------------------------------------------------
B-|---------------------------------------------------------
G-|---------------------------------------------------------
D-|---------------------------------6-8-9-6-8-9-6-8-9-6-8-9-
A-|-7-7-7-7-7-7-7-7-9-9-9-9-9-9-9-9-4-6-7-4-6-7-4-6-7-4-6-7-
E-|-5-5-5-5-5-5-5-5-7-7-7-7-7-7-7-7-------------------------

e-|---------------------------------------------------------
B-|---------------------------------------------------------
G-|---------------------------------------------------------
D-|---------------------------------6-8-9-6-8-9-6-8-9-6-8-9-
A-|-7-7-7-7-7-7-7-7-9-9-9-9-9-9-9-9-4-6-7-4-6-7-4-6-7-4-6-7-
E-|-5-5-5-5-5-5-5-5-7-7-7-7-7-7-7-7-------------------------

e-|---------------------------------------------------------
B-|---------------------------------------------------------
G-|---------------------------------------------------------
D-|---------------------------------6-8-9-6-8-9-6-8-9-6-8-9-
A-|-7-7-7-7-7-7-7-7-9-9-9-9-9-9-9-9-4-6-7-4-6-7-4-6-7-4-6-7-
E-|-5-5-5-5-5-5-5-5-7-7-7-7-7-7-7-7-------------------------

e-|----------------------------------|
B-|----------------------------------|
G-|----------------------------------|
D-|----------------------------------|
A-|-7-7-7-7-7-7-7-7-9-9-9-9-9-9-9-9--|
E-|-5-5-5-5-5-5-5-5-7-7-7-7-7-7-7-7--|

e-|-----------------------------------------------------------------------|
B-|-----------------------------------------------------------------------|
G-|-----------------------------------------------------------------------|
D-|-6-6-8-8-6---------6-6-8-8-6-----6-6-6-8-8-6---------6-6-8-8-8-6-----6-|
A-|-4-4-6-6-4-2-4-4-2-4-4-6-6-4-2-4-4-4-4-6-6-4-2-4-4-2-4-4-6-6-6-4-2-4-4-|
E-|-----------0-2-2-0-----------0-2-------------0-2-2-0-------------0-2---|

   =====================================================================