----------------------------------------------------------------------
                            GREEN CORN - NOFX
----------------------------------------------------------------------

By: Bill Selak    wselak@oboe.calpoly.edu

e-|-------------------|---------------------------
B-|-------------------|---------------------------
G-|-------10-11-11-11-|-14-12-14------------------
D-|-11-10-10-11-11-11-|-14-12-14-12-10-12-10-7-10-
A-|-11-10--8--9--9--9-|-12-10-12-12-10-12-10-7-10-
E-|--9--8-------------|----------10--8-10--8-5--8-

e-|------------------------------------------------------------|
B-|------------------------------------------------------------|
G-|-14-12-14--------14-12-14-------14-12-14-----------------|
D-|--x--x--x--12-10--x---x--x-12-10--x--x--x--12-10-12-10-7-|
A-|-12-10-12--x--x--12-10-12--x--x-12-10-12--x--x---x--x--7-|
E-|-----------10--8-----------10--8-----------10--8-10--8--5-|

e-|----------------------------------------------------------------
B-|----------------------------------------------------------------
G-|-------------5-2------------------------------------------------
D-|-3-2-3-3-3-3-5-2---3-2-3-3-3-3--7-7-7-7--5-5-5-5-2-2-2-22222
A-|-3-2-3-3-3-3-3-0---3-2-3-3-3-3--7-7-7-7--5-5-5-5-2-2-222222
E-|-1-0-1-1-1-1-------1-0-1-1-1-1--5-5-5-5--3-3-3-3-0-0-0-00000

e-|----------------------------------------------------------------
B-|----------------------------------------------------------------
G-|----------------------------------------------------------------
D-|---------------------------5-5-5-5-------------------------5555
A-|-7-7-7-7-3-3-3-3-3-3-3-3-3-3-3-3-5-5-5-5-5-5-5-5-3-3-333333
E-|-5-5-5-5-1-1-1-1-1-1-1-1----------3-3-3-3-3-3-3-3-1-1-11-----

e-|----------------------------------------------------------------
B-|----------------------------------------------------------------
G-|----------------------------------------------------------------
D-|---------------------------5-5-5-5-------------------------5555
A-|-7-7-7-7-3-3-3-3-3-3-3-3-3-3-3-3-5-5-5-5-5-5-5-5-3-3-333333
E-|-5-5-5-5-1-1-1-1-1-1-1-1----------3-3-3-3-3-3-3-3-1-1-11-----
e-|------------------------------------------------------------|
B-|------------------------------------------------------------|
G-|-14-12-14--------14-12-14-------14-12-14-----------------|
D-|--x--x--x--12-10--x---x--x-12-10--x--x--x--12-10-12-10-7-|
A-|-12-10-12--x--x--12-10-12--x--x-12-10-12--x--x---x--x--7-|
E-|-----------10--8-----------10--8-----------10--8-10--8--5-|

e-|----------------------------------------------------------------
B-|----------------------------------------------------------------
G-|----------------------------------------------------------------
D-|---------------------------5-5-5-5-------------------------5555
A-|-7-7-7-7-3-3-3-3-3-3-3-3-3-3-3-3-5-5-5-5-5-5-5-5-3-3-333333
E-|-5-5-5-5-1-1-1-1-1-1-1-1---------3-3-3-3-3-3-3-3--1-1-11-----

e-|---------------------------------------------------------------
B-|----------------------------------------------------------------
G-|----------------------------------------------------------------
D-|-------------------------5-5-5-5---------------------------5555
A-|-7-7-7-7-3-3-3-3-3-3-3-3-3-3-3-3-5-5-5-5-5-5-5-5-3-3-333333
E-|-5-5-5-5-1-1-1-1-1-1-1-1----------3-3-3-3-3-3-3-3-1-1-11--

e-|----------------------------------------------------------------
B-|----------------------------------------------------------------
G-|----------------------------------------------------------------
D-|----------------------------------------------------------------
A-|-7-7-7-7-7-7-7-7-7-7-7-7-7-7-7-7-5-5-5-5-5-5-5-5-5-5-555555
E-|-5-5-5-5-5-5-5-5-5-5-5-5-5-5-5-5-3-3-3-3-3-3-3-3-3-3-333333

e-|------------------|
B-|------------------|
G-|----------------1-|
D-|----------------2-|
A-|-3-3-2-3-2-5-3-2-|
E-|-1-1------------0-|

e-|----------------------------------------------------------------
B-|----------------------------------------------------------------
G-|----------------------------------------------------------------
D-|-------------------------5-5-5-5---------------------------5555
A-|-7-7-7-7-3-3-3-3-3-3-3-3-3-3-3-3-5-5-5-5-5-5-5-5-3-3-333333
E-|-5-5-5-5-1-1-1-1-1-1-1-1----------3-3-3-3-3-3-3-3-1-1-11----

solo (w/lots of delay):
e-|----------------------------------------------------------------
B-|--------------------------------10-12-13-14-15^full^15-12-12/\/
G-|-------------------------9/10-12--------------------------
D-|---------------7-9-10/12---------------------------------
A-|------5-7-8/10----------------------------------------------
E-|-5-7-8----------------------------------------------------------

e-|----------------------------------------------------------------
B-|12^15^12 -12^15^12 -12^15^12 -12^15^12 -12^15^12  etc...------------
G-|-------14 -------14 -------14 -------14 ------14 ----------------
D-|----------------------------------------------------------------
A-|----------------------------------------------------------------
E-|----------------------------------------------------------------

e-|-15^full-15-12----12-15-15^full-15------------------------------
B-|--------------15---------------12/\/\/\/\/\(vibrato)  \slide down
G-|----------------------------------------------------------------
D-|----------------------------------------------------------------
A-|----------------------------------------------------------------
E-|----------------------------------------------------------------


e-|----------------------------------------------------------------
B-|----------------------------------------------------------------
G-|----------------------------------------------------------------
D-|-------------------------5-5-5-5---------------------------5555
A-|-7-7-7-7-3-3-3-3-3-3-3-3-3-3-3-3-5-5-5-5-5-5-5-5-3-3-333333
E-|-5-5-5-5-1-1-1-1-1-1-1-1----------3-3-3-3-3-3-3-3-1-1-11-----

e-|------------------------------------------------------------|
B-|------------------------------------------------------------|
G-|-14-12-14--------14-12-14-------14-12-14-----------------|
D-|--x--x--x--12-10--x---x--x-12-10--x--x--x--12-10-12-10-7-|
A-|-12-10-12--x--x--12-10-12--x--x-12-10-12--x--x---x--x--7-|
E-|-----------10--8-----------10--8-----------10--8-10--8--5-|

   ==================================================================