-------------------------------------------------------------------------------------------------------------------
                         GONOHERPASYPHLAIDS - NOFX
-------------------------------------------------------------------------------------------------------------------

By: Jeff Munt

e-|-------------------------------------------------------------------------|
B-|-------------------------------------------------------------------------|
G-|-------------------------------------------------------------------------|
D-|-----5-7-7-9-9-9-9-9-9-9-----5-7-7-9-9-9-9-9-9-9-----5-7-7-9-9-9-9-9-9-9-|
A-|-7-7-3-5-5-7-7-7-7-7-7-7-7-7-3-5-5-7-7-7-7-7-7-7-7-7-3-5-5-7-7-7-7-7-7-7-|
E-|-5-5---------------------5-5---------------------5-5---------------------|

e-|-------------------------------------------------------------------------
B-|-------------------------------------------------------------------------
G-|-------------------------------------------------------------------------
D-|-------------------------7-7-7-7-7-7-7-7-4-4-4-4-4-4-4-4-9-7-7-7-7-11-11-
A-|-7-7-7-7-7-7-7-7-7-7-7-7-5-5-5-5-5-5-5-5-2-2-2-2-2-2-2-2-4-5-5-5-5--9--9-
E-|-5-5-5-5-5-5-5-5-5-5-5-5-------------------------------------------------

e-|-------------------|
B-|-------------------|
G-|-------------------|
D-|-11-11-11-11-11-11-|
A-|--9--9--9--9--9--9-|
E-|-------------------|

e-|-------------------------------------------------------------------------|
B-|-------------------------------------------------------------------------|
G-|-------------------------------------------------------------------------|
D-|-----5-7-7-9-9-9-9-9-9-9-----5-7-7-9-9-9-9-9-9-9-----5-7-7-9-9-9-9-9-9-9-|
A-|-7-7-3-5-5-7-7-7-7-7-7-7-7-7-3-5-5-7-7-7-7-7-7-7-7-7-3-5-5-7-7-7-7-7-7-7-|
E-|-5-5---------------------5-5---------------------5-5---------------------|

e-|-------------------------------------------------------------------------
B-|-------------------------------------------------------------------------
G-|-------------------------------------------------------------------------
D-|-------------------------7-7-7-7-7-7-7-7-4-4-4-4-4-4-4-4-9-7-7-7-7-11-11-
A-|-7-7-7-7-7-7-7-7-7-7-7-7-5-5-5-5-5-5-5-5-2-2-2-2-2-2-2-2-4-5-5-5-5--9--9-
E-|-5-5-5-5-5-5-5-5-5-5-5-5-------------------------------------------------

e-|-------------------|
B-|-------------------|
G-|-------------------|
D-|-11-11-11-11-11-11-|
A-|--9--9--9--9--9--9-|
E-|-------------------|

e-|-------------------------------------------|
B-|-------------------------------------------|
G-|-------------------------------------------|
D-|-----5-7-7-9-9-9-9-9-9-9-9-----9-9-7-7-9-9-|
A-|-7-7-3-5-5-7-7-7-7-7-7-7-7-7-7-7-7-5-5-7-7-|
E-|-5-5-----------------------5-5-------------|

e-|---------------------------------------------------------|
B-|---------------------------------------------------------|
G-|---------------------------------9-9-7-9p7---------------|
D-|-5-5-5-5-5-5-5-5-5-5-5-5-5-5-5-5-----------9-7-9p7-9-7-5-|
A-|-3-3-3-3-3-3-3-3-3-3-3-3-3-3-3-3-------------------------|
E-|---------------------------------------------------------|

e-|------------------------------------------------------------------------
B-|------------------------------------------------------------------------
G-|------------------------------------------------------------------------
D-|-5-5-5-5-5-5-5-5-10-10-10-10-10-10-10-10-5-5-5-5-5-5-5-5-8-10-10-10-10--
A-|-3-3-3-3-3-3-3-3--8--8--8--8--8--8--8--8-3-3-3-3-3-3-3-3-6--8--8--8--8--
E-|------------------------------------------------------------------------

e-|-------------|---------------------------------------------------------
B-|-------------|---------------------------------------------------------
G-|-------------|---------------------------------------------------------
D-|-10-10-10-10-|-------------------------7-7-7-7-7-7-7-7-9-9-9-9-9-9-9-9-
A-|--8--8--8--8-|-7-7-7-7-7-7-7-7-7-7-7-7-5-5-5-5-5-5-5-5-7-7-7-7-7-7-7-7-
E-|-------------|-5-5-5-5-5-5-5-5-5-5-5-5---------------------------------

e-|-----------------------------------|-
B-|-----------------------------------|-
G-|-----------------------------------|-
D-|-4-4-4-4-4-4-4-4-6-7-7-7-7-7-7-7-7-|-
A-|-2-2-2-2-2-2-2-2-4-5-5-5-5-5-5-5-5-|-
E-|-----------------------------------|-
solo?
e-|-------------------------------------------------------------------------
B-|-------------------------------------------------------------------------
G-|-------------------------------------------------------------------------
D-|-----5-7-7-9-9-9-9-9-9-9-----5-7-7-9-9-9-9-9-9-9-----5-7-7-9-9-9-9-9-9-9-
A-|-7-7-3-5-5-7-7-7-7-7-7-7-7-7-3-5-5-7-7-7-7-7-7-7-7-7-3-5-5-7-7-7-7-7-7-7-
E-|-5-5---------------------5-5---------------------5-5---------------------

e-|--------------------|
B-|--------------------|
G-|--------------------|
D-|-----9-9-7-7-9-9-14-|
A-|-7-7-7-7-5-5-7-7-12-|
E-|-5-5----------------|

   =====================================================================