-----------------------------------------------------------------------------
               All His Suites are Torn - NOFX
-----------------------------------------------------------------------------

By:Dukesta33@aol.com

Intro:
e|--------------------------------------------------------------------|
B|--------------------------------------------------------------------|
G|-------------------------------------3----5---7---5---3---4---------------|
D|-------------------------------------3----5---7---5---3---2---------------|
A|---10---7----1----10--10---7-----1----3---5---3---1---2---------------------
-------|
E|--------------------------------------------------------------------|

Outro of Intro:
e|--------------------------------------------------------------------|
B|--------------------------------------------------------------------|
G|---10-----7------------------------------------------------------------|
D|---10-----7------------------------------------------------------------|
A|----8------5----------------------------------------------------------|
E|--------------------------------------------------------------------|

Verse:
e|--------------------------------------------------------------------|
B|--------------------------------------------------------------------|
G|---3----10----5-----7----------------------------------------------------|
D|---3----10----5-----7----------------------------------------------------|
A|---1-----8-----3-----5--------------------------------------------------|
E|--------------------------------------------------------------------|

Last Part:
e|--------------------------------------------------------------------|
B|--------------------------------------------------------------------|
G|--------------------------------------------------------------------|
D|----3----6------------------------------------------------------------|
A|----1----4-----3-------------------------------------------------------|
E|----------------1----------------------------------------------------|

=====================================================================
========